Go Back   Muse Messageboard > Muse Incl. Off Topic > Kit & Tab

Reply
 
Thread Tools Rate Thread
Old 06-11-2010, 10:03 PM   #1
MK Delta
Member
 
MK Delta's Avatar
 
Join Date: 01 April 2010
Location: Ireland (God's Country)
Age: 27
Twitter icon You Tube icon
MOTP Riff Tab

Hey folks, would anyone have a spare minute to try tab this riff at the end of MOTP. I don't posess the skills


If it's any help I think it's some variation on the Evil Riff

-----17----------------------------------------------------------------------------
----------16----------17----------------------------------------------------------
---------------15----------16----------17----------------------------------------
---------------------------------15----------16----------17----------------------
---------------------------------------------------15------------16---------------
-----------------------------------------------------------------------15----------
__________________
Matt:That bloody message board!
Dom:That great message board!
Keeper of
-Newborn Solo - Marlay Park 08
-harmonic riff - assassin in LA
MK Delta is offline   Reply With Quote
Old 07-11-2010, 07:58 AM   #2
grabacr 31770
omnomnomnom
 
Join Date: 26 May 2010
Location: Glos
Age: 22
Quote:
Originally Posted by MK Delta View Post
Hey folks, would anyone have a spare minute to try tab this riff at the end of MOTP. I don't posess the skills


If it's any help I think it's some variation on the Evil Riff

-----17----------------------------------------------------------------------------
----------16----------17----------------------------------------------------------
---------------15----------16----------17----------------------------------------
---------------------------------15----------16----------17----------------------
---------------------------------------------------15------------16---------------
-----------------------------------------------------------------------15----------
It is that I think, then you just walk it back up the fret board (do ^that^ in reverse).

Always wondered how to play that. Though my rubbish guitar skills (RH technique mainly) mean it's a bitch to play.
grabacr 31770 is offline   Reply With Quote
Old 07-11-2010, 10:11 AM   #3
Dominic.
Member
 
Dominic.'s Avatar
 
Join Date: 31 January 2008
Age: 24
Surely when it hits the big E string though (which is tuned to C for that song) it sounds all wrong though? Cos I've played that riff in drop D sometimes and it doesn't sound great
__________________
enit
Quote:
Originally Posted by james90 View Post
Eb--0--3--0--5--0--2--0--0--3--0

(short pause)

Eb--6--6
Dominic. is offline   Reply With Quote
Old 08-11-2010, 07:59 PM   #4
seraphrevan
Member
 
seraphrevan's Avatar
 
Join Date: 13 August 2009
Location: East Lansing, MI
Age: 27
Which part are you talking about? The little electronic sounding bits just before the last riff, or the last, heavier riff?
__________________
seraphrevan is offline   Reply With Quote
Old 10-11-2010, 11:48 AM   #5
MK Delta
Member
 
MK Delta's Avatar
 
Join Date: 01 April 2010
Location: Ireland (God's Country)
Age: 27
Twitter icon You Tube icon
Sorry!, the fiddly electronicy bit.
Pretty sure it's made up of the same notes as the evil riff "scale" up top (except for the drop c string - no idea!), just having trouble figuring out the pattern.
I think it's in 4/16 time if that helps.
__________________
Matt:That bloody message board!
Dom:That great message board!
Keeper of
-Newborn Solo - Marlay Park 08
-harmonic riff - assassin in LA
MK Delta is offline   Reply With Quote
Reply


Currently Active Users Viewing This Thread: 1 (0 members and 1 guests)
 
Thread Tools
Rate This Thread
Rate This Thread:

Posting Rules
You may not post new threads
You may not post replies
You may not post attachments
You may not edit your posts

BB code is On
Smilies are On
[IMG] code is On
HTML code is Off

Forum Jump

Similar Threads
Thread Thread Starter Forum Replies Last Post
MOTP + Maggie's Farm Riff ????? Mig-El Kit & Tab 8 15-05-2010 01:57 AM


All times are GMT. The time now is 03:16 PM.


Powered by vBulletin® Version 3.8.9
Copyright ©2000 - 2018, vBulletin Solutions, Inc.
Follow the Muse Messageboard on Twitter!
'Pornogenic' - this refers to pics of Muse (and their crotch regions)