Go Back   Muse Messageboard > Muse Incl. Off Topic > Kit & Tab

Reply
 
Thread Tools Rating: Thread Rating: 30 votes, 4.90 average.
Old 26-09-2006, 06:54 PM   #121
haze015
MANBEEF!!!!1!1!1!322$!!
 
haze015's Avatar
 
Join Date: 30 March 2003
Location: I am a MAN, not a girl or a girl pretending to be a man
Age: 31
Facebook icon SoundCloud icon
For the siren sounds, a Probe is probably better, because when you use the probe, you don't get all the hiss and stuff like you get when you move the Stab on the FF (Turning the Stab on the Probe is exactly the same), then add some delay or reverb, or both, then turn the Stab control/move your hand over the probe while turning the pedal on and off.

Sounds at the end, don't assume it's a DL4, because Matt will have access to more pedals in the studio, afterall, they used Echoplex's on Absolution, but he used an Echo Pro for touring.
__________________
Haze smells! << (OMGZ, HACK BY BEWILDERS)
stuff on spotify
haze015 is offline   Reply With Quote
Old 09-10-2006, 12:17 PM   #122
daveno1
Member
 
Join Date: 31 January 2005
Just got my whammy pedal, and im messing around with fury at the moment. Im using a fuzz factory, digitech whammy and zoom multi effects pedal. Now wat i was wondering is... Does matt definately use the fuzz factory in this song? I know u rock pedal harmony octave setting but is that with FF on as well instead of distortion? Anyone know the delay time also? And when its verse when guitar goes down an octave does FF stay on then? And is it on alone or with the delay still on a little? Any help would be appreciated.
daveno1 is offline   Reply With Quote
Old 09-10-2006, 04:46 PM   #123
Phill
 
Phill's Avatar
 
Join Date: 06 December 2003
Location: Cornwall
Age: 33
Facebook icon Flickr icon
Hmmm i'd use a fairly quick delay time with a few repeats, no delay in the verse. sounds better with fuzz for the riff and the verses but switch to crisper distortion for the chorus so the harmony up sounds clearer
Phill is offline   Reply With Quote
Old 09-10-2006, 04:50 PM   #124
haze015
MANBEEF!!!!1!1!1!322$!!
 
haze015's Avatar
 
Join Date: 30 March 2003
Location: I am a MAN, not a girl or a girl pretending to be a man
Age: 31
Facebook icon SoundCloud icon
Quote:
Originally Posted by Phill View Post
Hmmm i'd use a fairly quick delay time with a few repeats, no delay in the verse. sounds better with fuzz for the riff and the verses but switch to crisper distortion for the chorus so the harmony up sounds clearer
Just switch between the neck and bridge pickups, saves switching pedals then.
__________________
Haze smells! << (OMGZ, HACK BY BEWILDERS)
stuff on spotify
haze015 is offline   Reply With Quote
Old 09-10-2006, 05:16 PM   #125
Phill
 
Phill's Avatar
 
Join Date: 06 December 2003
Location: Cornwall
Age: 33
Facebook icon Flickr icon
ooh true, although i use fuzz over my amps distortion so it's just as easy to click the fuzz of than switching pick ups of you could roll off the volume, although not sure how well that would work on the FF if it's ocsillating
Phill is offline   Reply With Quote
Old 09-10-2006, 06:06 PM   #126
haze015
MANBEEF!!!!1!1!1!322$!!
 
haze015's Avatar
 
Join Date: 30 March 2003
Location: I am a MAN, not a girl or a girl pretending to be a man
Age: 31
Facebook icon SoundCloud icon
Quote:
Originally Posted by Phill View Post
ooh true, although i use fuzz over my amps distortion so it's just as easy to click the fuzz of than switching pick ups
Ah, that would also work.

I wouldn't use an FF at all for Fury though, find a Big Muff suits it better, especially in the verse.
__________________
Haze smells! << (OMGZ, HACK BY BEWILDERS)
stuff on spotify
haze015 is offline   Reply With Quote
Old 09-10-2006, 06:47 PM   #127
Phill
 
Phill's Avatar
 
Join Date: 06 December 2003
Location: Cornwall
Age: 33
Facebook icon Flickr icon
yeah same, partly because i don't have a fuzz factory anymore, big muff and dirty combined =
Phill is offline   Reply With Quote
Old 09-10-2006, 08:29 PM   #128
daveno1
Member
 
Join Date: 31 January 2005
kl so u suggest just fuzz factory and down octave harmoiser for verse with no delay?

And up octave harmoniser with distortion for the chorus?

wat about the whole fuzz facroty thing tho does matt actually use one live or in studio for fury?
daveno1 is offline   Reply With Quote
Old 09-10-2006, 09:14 PM   #129
Phill
 
Phill's Avatar
 
Join Date: 06 December 2003
Location: Cornwall
Age: 33
Facebook icon Flickr icon
hmmm not studio, and not on the absolution tour, but possibley pre absolution when it was get a grip.
Phill is offline   Reply With Quote
Old 25-10-2006, 09:08 PM   #130
Splinter
Member
 
Splinter's Avatar
 
Join Date: 16 July 2004
Location: Netherlands
Age: 32
Ok so I just got a Boss DD-3 and I'm trying to figure out the settings of TIRO. Anyone got some good settings that I can use? Thnx in advance.
__________________


Last Played Tracks:
Splinter is offline   Reply With Quote
Old 26-10-2006, 05:51 AM   #131
coffee_and_tv
will eat your chicken
 
coffee_and_tv's Avatar
 
Join Date: 28 January 2006
Location: melbourne! yeah!
Age: 27
Send a message via MSN to coffee_and_tv
Facebook icon MySpace icon
getting a zoom g7 next week and wondering: anyone else got one and feel like posting up some settings? i know people are gonna say "experiment", but i will experiment, id just like some non-factory-preset settings to work with in the beginning.
cheers in advance
coffee
__________________
myspace!
bandspace!
blog!

8/9/04 MUSE FESTIVAL HALL --- 30/1/07 MUSE FESTIVAL HALL
17/8/07 BOB DYLAN ROD LAVER ARENA --- 15/11/07 MUSE ROD LAVER ARENA
25/2/08 INTERPOL FESTIVAL HALL
5/1/09 FRANZ FERDINAND THE PALACE THEATRE
coffee_and_tv is offline   Reply With Quote
Old 06-11-2006, 02:54 AM   #132
kuz
Nosy bastard
 
kuz's Avatar
 
Join Date: 02 December 2003
Location: Princeton, NJ
Age: 30
Send a message via MSN to kuz Send a message via Skype™ to kuz
Facebook icon Last.fm icon MySpace icon
for all you verbzilla owners out there, here's an organ-like setting (taken almost directly from the manual ):
Mix full, Decay 12 o'clock, Time 12 o'clock, Tone 2 o'clock, Setting Octo.

now play this:

Code:
                                  Megalomania                                   


     Em
     E  E  E  E  E  E  E  E     E  E  E  E  E  E  E  E   
e||--------------0-----------|--------------0-----------|
B||-----------0-----0--------|-----------0-----0--------|
G||--------0-----------0-----|--------0-----------0-----|
D||-----2-----------------2--|-----2-----------------2--|
A||--------------------------|--2-----------------------|
E||--0-----------------------|--------------------------|


  Em
  E  E  E  E  E  E  E  E     E  E  E  E  E  E  E  E   
--------------0-----------|--------------0-----------|
-----------0-----0--------|-----------0-----0--------|
--------0-----------0-----|--------0-----------0-----|
-----2-----------------2--|-----2-----------------2--|
--------------------------|--2-----------------------|
--0-----------------------|--------------------------|


  Em                         F#m11
  E  E  E  E  E  E  E  E     E  E  E  E  E  E  E  E   
--------------0-----------|--------------------------|
-----------0-----0--------|--------------2-----------|
--------0-----------0-----|-----------2-----2--------|
-----2-----------------2--|-----1--4-----------4--1--|
--------------------------|--------------------------|
--0-----------------------|--2-----------------------|


  Am                         B7
  E  E  E  E  E  E  E  E     E  E  E  E  E  E  E  E   
--------------0-----------|--------------------------|
-----------1-----1--------|--------------0-----------|
--------2-----------2-----|-----------2-----2--------|
-----2-----------------2--|-----1--4-----------4--1--|
--0-----------------------|--2-----------------------|
--------------------------|--------------------------|


  Em                         C
  E  E  E  E  E  E  E  E     E  E  E  E  E  E  E  E   
--------------0-----------|--------------0-----------|
-----------0-----0--------|-----------1-----1--------|
--------0-----------0-----|--------0-----------0-----|
-----2-----------------2--|-----2-----------------2--|
--------------------------|--3-----------------------|
--0-----------------------|--------------------------|


  G/B                        Am
  E  E  E  E  E  E  E  E     E  E  E  E  E  E  E  E   
--------------------------|--------------0-----------|
-----------0--3--0--------|-----------1-----1--------|
--------0-----------0-----|--------2-----------2-----|
-----0-----------------0--|-----2-----------------2--|
--2-----------------------|--0-----------------------|
--------------------------|--------------------------|


  Em/G                       E/G#
  E  E  E  E  E  E  E  E     E  E  E  E  E  E  E  E   
--------------0-----------|--------------0-----------|
-----------0-----0--------|-----------0-----0--------|
--------0-----------0-----|--------1-----------1-----|
-----2-----------------2--|-----2-----------------2--|
--------------------------|--------------------------|
--3-----------------------|--4-----------------------|


  Am                         B7
  E  E  E  E  E  E  E  E     E  E  E  E  E  E  E  E   
--------------0-----------|--------------------------|
-----------1-----1--------|--------------0-----------|
--------2-----------2-----|-----------2-----2--------|
-----2-----------------2--|-----1--4-----------4--1--|
--0-----------------------|--2-----------------------|
--------------------------|--------------------------|


  Em                         D                  B7          
  E  E  E  E  E  E  E  E     E  E  Q    Q       H        H         
--------------0-----------|--2--2--2----2----|--2--------2--------|
-----------0-----0--------|--3--3--3----3----|--0--------0--------|
--------0-----------0-----|--2--2--2----2----|--2--------2--------|
-----2-----------------2--|--0--0--0----0----|--1--------1--------|
--------------------------|------------------|--2--------2--------|
--0-----------------------|------------------|--------------------|


  B7                   C                      Am                     
  H        H           Q    Q    Q    Q       Q    Q    Q    Q     
--2--------2--------|--0----0----0----0----|--0----0----0----0----|
--0--------0--------|--1----1----1----1----|--1----1----1----1----|
--2--------2--------|--0----0----0----0----|--2----2----2----2----|
--1--------1--------|--2----2----2----2----|--2----2----2----2----|
--2--------2--------|--3----3----3----3----|--0----0----0----0----|
--------------------|----------------------|----------------------|


  D                      D                      G/B                    
  Q    Q    Q    Q       Q    Q    Q    Q       Q    Q    Q    Q     
--2----2----2----2----|--2----2----2----2----|--3----3----3----3----|
--3----3----3----3----|--3----3----3----3----|--0----0----0----0----|
--2----2----2----2----|--2----2----2----2----|--0----0----0----0----|
--0----0----0----0----|--0----0----0----0----|--0----0----0----0----|
----------------------|----------------------|--2----2----2----2----|
----------------------|----------------------|----------------------|


  Gaug                   C                      C                  
  Q    Q    Q    Q       Q    Q    Q    Q       Q    Q    Q    Q     
--3----3----3----3----|--3----3----3----3----|--3----3----3----3----|
--0----0----0----0----|--1----1----1----1----|--1----1----1----1----|
--0----0----0----0----|--0----0----0----0----|--0----0----0----0----|
--1----1----1----1----|--2----2----2----2----|--2----2----2----2----|
--2----2----2----2----|--3----3----3----3----|--3----3----3----3----|
--3----3----3----3----|----------------------|----------------------|


  C                      Cadd#11                Am6                  
  Q    Q    Q    Q       Q    Q    Q    Q       Q    Q    Q    Q     
--3----3----3----3----|--2----2----2----2----|--2----2----2----2----|
--1----1----1----1----|--1----1----1----1----|--1----1----1----1----|
--0----0----0----0----|--0----0----0----0----|--2----2----2----2----|
--2----2----2----2----|--2----2----2----2----|--2----2----2----2----|
--3----3----3----3----|--3----3----3----3----|--0----0----0----0----|
----------------------|----------------------|----------------------|


  Am6                    B7                     B7 2                 
  Q    Q    Q    Q       Q    Q    Q    Q       Q    Q    Q    Q     
--2----2----2----2----|--2----2----2----2----|--2----2----2----2----|
--1----1----1----1----|--0----0----0----0----|--0----0----0----0----|
--2----2----2----2----|--2----2----2----2----|--2----2----2----2----|
--2----2----2----2----|--1----1----1----1----|--1----1----1----1----|
--0----0----0----0----|--2----2----2----2----|--2----2----2----2----|
----------------------|----------------------|----------------------|


  B7                     B7                  
  Q    Q    Q    Q       Q    Q    Q    Q      
--2----2----2----2----|--2----2----2----2----||
--0----0----0----0----|--0----0----0----0----||
--2----2----2----2----|--2----2----2----2----||
--1----1----1----1----|--1----1----1----1----||
--2----2----2----2----|--2----2----2----2----||
----------------------|----------------------||
kuz is offline   Reply With Quote
Old 09-11-2006, 10:00 AM   #133
coffee_and_tv
will eat your chicken
 
coffee_and_tv's Avatar
 
Join Date: 28 January 2006
Location: melbourne! yeah!
Age: 27
Send a message via MSN to coffee_and_tv
Facebook icon MySpace icon
ok people!!! i got my zoom g7.1ut today and it is sex incarnate! but thats another story altogether

anyway... anyone got any patches for it? i've made a few (inaccurate) ones which ill tweak in the time to come and yeah..
maybe post links to the files or something?
still dont understand the bugger completely...
cheers!
coffee
__________________
myspace!
bandspace!
blog!

8/9/04 MUSE FESTIVAL HALL --- 30/1/07 MUSE FESTIVAL HALL
17/8/07 BOB DYLAN ROD LAVER ARENA --- 15/11/07 MUSE ROD LAVER ARENA
25/2/08 INTERPOL FESTIVAL HALL
5/1/09 FRANZ FERDINAND THE PALACE THEATRE
coffee_and_tv is offline   Reply With Quote
Old 04-01-2007, 11:49 AM   #134
wisemaster
Member
 
Join Date: 18 August 2006
Location: Nantes
Age: 31
Send a message via MSN to wisemaster
Hello guys,
I've searched in many posts but I don't find a special FX :
It's during Glastonbury 2004, when they are playing Sunburn, during verses, you can hear a strange sound in background, like you're near lava in fusion (ok, i'm crazy...). So do you know what is this effect ?
Thanks
wisemaster is offline   Reply With Quote
Old 04-01-2007, 11:53 AM   #135
coffee_and_tv
will eat your chicken
 
coffee_and_tv's Avatar
 
Join Date: 28 January 2006
Location: melbourne! yeah!
Age: 27
Send a message via MSN to coffee_and_tv
Facebook icon MySpace icon
Quote:
Originally Posted by coffee_and_tv View Post
ok people!!! i got my zoom g7.1ut today and it is sex incarnate! but thats another story altogether

anyway... anyone got any patches for it? i've made a few (inaccurate) ones which ill tweak in the time to come and yeah..
maybe post links to the files or something?
still dont understand the bugger completely...
cheers!
coffee
anyone!?!?!??!
__________________
myspace!
bandspace!
blog!

8/9/04 MUSE FESTIVAL HALL --- 30/1/07 MUSE FESTIVAL HALL
17/8/07 BOB DYLAN ROD LAVER ARENA --- 15/11/07 MUSE ROD LAVER ARENA
25/2/08 INTERPOL FESTIVAL HALL
5/1/09 FRANZ FERDINAND THE PALACE THEATRE
coffee_and_tv is offline   Reply With Quote
Reply

Tags
amp settings , effects , muse , settings , to infinity and beyond


Currently Active Users Viewing This Thread: 1 (0 members and 1 guests)
 
Thread Tools
Rate This Thread
Rate This Thread:

Posting Rules
You may not post new threads
You may not post replies
You may not post attachments
You may not edit your posts

BB code is On
Smilies are On
[IMG] code is On
HTML code is Off

Forum Jump


All times are GMT. The time now is 09:07 PM.


Powered by vBulletin® Version 3.8.9
Copyright ©2000 - 2018, vBulletin Solutions, Inc.
Follow the Muse Messageboard on Twitter!
'Pornogenic' - this refers to pics of Muse (and their crotch regions)