Go Back   Muse Messageboard > Muse Incl. Off Topic > Kit & Tab

Reply
 
Thread Tools Rate Thread
Old 29-02-2008, 01:34 AM   #31
Ab0nis
Member
 
Join Date: 29 February 2008
3.56 - 4.25 http://www.youtube.com/watch?v=S4BaB7NBLtA (for who has nothing to do)

0.25 http://www.youtube.com/watch?v=Qz1HbKcoC14
Ab0nis is offline   Reply With Quote
Old 29-02-2008, 05:58 PM   #32
JJ
 
Join Date: 22 July 2007
Age: 23
Quote:
Originally Posted by Ab0nis View Post
this effect is made by putting your dick in a blender and fucking off.
__________________
JJ is offline   Reply With Quote
Old 29-02-2008, 08:50 PM   #33
~NoblameNoshame~
Member
 
Join Date: 27 March 2003
Quote:
Originally Posted by JJ View Post
this effect is made by putting your dick in a blender and fucking off.
Ok, im guessing you ment to say "jacking off"...???
__________________
TwatTwat
~NoblameNoshame~ is offline   Reply With Quote
Old 29-02-2008, 10:26 PM   #34
JJ
 
Join Date: 22 July 2007
Age: 23
Quote:
Originally Posted by ~NoblameNoshame~ View Post
Ok, im guessing you ment to say "jacking off"...???
precisely.
__________________
JJ is offline   Reply With Quote
Old 01-03-2008, 04:40 AM   #35
the_man361
Most Talented+Helpful 08!
 
the_man361's Avatar
 
Join Date: 20 August 2004
Location: Leeds
Age: 30
Send a message via MSN to the_man361
Facebook icon Twitter icon You Tube icon
SpACE CATS LOOOOOOOOOOOOOOOL
__________________


the_man361 is offline   Reply With Quote
Old 01-03-2008, 09:39 AM   #36
Esparoba1
Member
 
Esparoba1's Avatar
 
Join Date: 04 May 2007
Location: Belgium,Limburg,Sint-Truiden
Send a message via MSN to Esparoba1 Send a message via Skype™ to Esparoba1
You Tube icon
Quote:
Originally Posted by the_man361 View Post
its just some blues style licks in E

in cant be bothered to tab it because its so short, but itll use the notes:

E--12----------------------------------
B-------15--12------------------------
G------------------15--14--12-------
D-----------------------------------12-

i can hear the first note is a bend of the B string at 15th fret (bending up to the pitch of 17th) with E held at 12th.

the last note is also definitely a 14th fret on the D string. you should be able to work the rest out given that much
Yeah that pretty close to what I played I'll tab it out when I got time
__________________

Member of the bash the banshee group. pm JJ or Jonno to join
Esparoba1 is offline   Reply With Quote
Old 21-03-2008, 10:36 PM   #37
Richard Misiak
The Polish Prince
 
Richard Misiak's Avatar
 
Join Date: 25 August 2007
http://uk.youtube.com/watch?v=6fSvmhX6oa8
does anyone have a tab for the riff at the beginning?
__________________
Richard Misiak is offline   Reply With Quote
Old 21-03-2008, 11:39 PM   #38
Xut
Mudkipz
 
Xut's Avatar
 
Join Date: 26 October 2007
Quote:
Originally Posted by the_man361 View Post
SpACE CATS LOOOOOOOOOOOOOOOL
terribly true
__________________

Quote:
Originally Posted by Toff View Post
The search is a bag of wank. if i searched for Fuzz Factory, I'd probably end up getting threads about matts big toes.
Xut is offline   Reply With Quote
Old 25-03-2008, 08:30 AM   #39
Richard Misiak
The Polish Prince
 
Richard Misiak's Avatar
 
Join Date: 25 August 2007
http://uk.youtube.com/watch?v=6fSvmhX6oa8
does anyone have a tab for the riff at the beginning? It's the same riff as from the HAARP DVD on the 'Improv' track

In other words - BUMP
__________________

Last edited by Richard Misiak; 25-03-2008 at 08:44 AM.
Richard Misiak is offline   Reply With Quote
Old 25-03-2008, 09:08 AM   #40
Esparoba1
Member
 
Esparoba1's Avatar
 
Join Date: 04 May 2007
Location: Belgium,Limburg,Sint-Truiden
Send a message via MSN to Esparoba1 Send a message via Skype™ to Esparoba1
You Tube icon
Quote:
Originally Posted by Richard Misiak View Post
http://uk.youtube.com/watch?v=6fSvmhX6oa8
does anyone have a tab for the riff at the beginning? It's the same riff as from the HAARP DVD on the 'Improv' track

In other words - BUMP
somebody else already tabbed it out once so kudos for him

Quote:
Slap this in Notepad Dude!

Riff 1
E-------------------------------------------I
B---8---------------------------------------I
G---7---------------------------------------I
D---6---------------------------------------I
A---7---------------5--5h7-5-0h2p0----------I
E-0----0-3-5-6-7--7--7-------------3(bu1/4)-I
This is the dude ( VernonKay ) playing the tab

__________________

Member of the bash the banshee group. pm JJ or Jonno to join
Esparoba1 is offline   Reply With Quote
Old 25-03-2008, 05:00 PM   #41
Richard Misiak
The Polish Prince
 
Richard Misiak's Avatar
 
Join Date: 25 August 2007
Cheers
__________________
Richard Misiak is offline   Reply With Quote
Old 25-03-2008, 08:28 PM   #42
Doog
mini-matt
 
Doog's Avatar
 
Join Date: 14 May 2003
Location: Wolverhampton, UK
Age: 34
Twitter icon
first person to tab out the picked intro before unintended on the haarp cd/dvd wins a pie
Doog is offline   Reply With Quote
Old 25-03-2008, 08:38 PM   #43
the_man361
Most Talented+Helpful 08!
 
the_man361's Avatar
 
Join Date: 20 August 2004
Location: Leeds
Age: 30
Send a message via MSN to the_man361
Facebook icon Twitter icon You Tube icon
Quote:
Originally Posted by Xut View Post
terribly true
lmao, i dont even remember posting that!
__________________


the_man361 is offline   Reply With Quote
Old 25-03-2008, 08:49 PM   #44
toff
Banned
 
Join Date: 03 January 2007
Location: Near Manchester
Age: 25
Last.fm icon
Quote:
Originally Posted by Doog View Post
first person to tab out the picked intro before unintended on the haarp cd/dvd wins a pie
Its on muselive somwhere. if you search here for sommat like "Unintended tab" it comes up with a link in one of the threads.
toff is offline   Reply With Quote
Old 25-03-2008, 08:50 PM   #45
Esparoba1
Member
 
Esparoba1's Avatar
 
Join Date: 04 May 2007
Location: Belgium,Limburg,Sint-Truiden
Send a message via MSN to Esparoba1 Send a message via Skype™ to Esparoba1
You Tube icon
Quote:
Originally Posted by Doog View Post
first person to tab out the picked intro before unintended on the haarp cd/dvd wins a pie
Capo 5th fret and this

e-------------0--------------
b-----------4--4-----4------
g---------2------2-----2----
d-------2----------2-----2-
a--0-0----------------------
e---------------------------- x2


e-------------0--------------
b-----------4--4-----4------
g---------0------0-----0----
d-------2----------2-----2-
a--0-0----------------------
e---------------------------- x2


e-------------0--------------
b-----------4--4-----4------
g---------2------2-----2----
d-------4----------4-----4-
a--0-0----------------------
e---------------------------- x2


e-------------0--------------
b-----------4--4-----4------
g---------2------2-----2----
d-------3----------3-----3-
a--0-0----------------------
e---------------------------- x2


e-------------0--------------
b-----------2--2-----2------
g---------4------4-----4----
d-------2----------2-----2-
a--0-0----------------------
e---------------------------- x2


e-------------0--------------
b-----------1--1-----1------
g---------4------4-----4----
d-------2----------2-----2-
a--0-0----------------------
e---------------------------- x2


e-------------0--------------
b-----------0--0-----0------
g---------2------2-----2----
d-------2----------2-----2-
a--0-------------------------
e-----3----------------------


e-------------0--------------
b-----------0--0-----0------
g---------2------2-----2----
d-------2----------2-----2-
a----------------------------
e--3-2----------------------

e-------------0--------------
b-----------0--0-----0------
g---------2------2-----2----
d-------2----------2-----2-
a----------------------------
e--2-1----------------------

e-------------0--------------
b-----------0--0-----0------
g---------2------2-----2----
d-------2----------2-----2-
a----------------------------
e--1-0----------------------

e-------------0--------------
b-----------0--0-----0------
g---------2------2-----2----
d-------2----------2-----2-
a----------------------------
e--0-0----------------------

e-------------0--------------
b-----------0--0-----0------
g---------1------1-----2----
d-------2----------2-----2-
a----------------------------
e--0-0----------------------


e---0----
b---0----
g---1----
d---2----
a---2---
e---0---- < slow strum

Where is my pie ?
__________________

Member of the bash the banshee group. pm JJ or Jonno to join
Esparoba1 is offline   Reply With Quote
Reply

Tags
how to play , intro , lessons , live , maggies farm riff , muse , osaka jam , outro , piano , request , riffs , solo , songs , tab , tablature , tabs


Currently Active Users Viewing This Thread: 1 (0 members and 1 guests)
 
Thread Tools
Rate This Thread
Rate This Thread:

Posting Rules
You may not post new threads
You may not post replies
You may not post attachments
You may not edit your posts

BB code is On
Smilies are On
[IMG] code is On
HTML code is Off

Forum Jump


All times are GMT. The time now is 05:42 AM.


Powered by vBulletin® Version 3.8.9
Copyright ©2000 - 2017, vBulletin Solutions, Inc.
Follow the Muse Messageboard on Twitter!
'Pornogenic' - this refers to pics of Muse (and their crotch regions)