Go Back   Muse Messageboard > Muse Incl. Off Topic > Kit & Tab

Reply
 
Thread Tools Rating: Thread Rating: 2 votes, 5.00 average.
Old 16-11-2009, 04:39 PM   #1
warkygers
Member
 
Join Date: 24 April 2008
America - Muse West Side Story Cover

Can Anyone Help me work this out all i've got so far is

B --7-7-7-12-7-9-5--
G--------------------
D-------------------9

Thanks In Advance for The Help
__________________
We Will Be Victorious[SIZE="5"][/SIZE]
warkygers is offline   Reply With Quote
Old 31-01-2010, 03:54 PM   #2
jeb7
Member
 
Join Date: 07 February 2009
would love if someone would tab this full
jeb7 is offline   Reply With Quote
Old 04-08-2010, 08:35 AM   #3
EndlesslyErased
Member
 
EndlesslyErased's Avatar
 
Join Date: 18 April 2010
Location: Erfurt, Germany
Age: 32
You Tube icon
anyone worked it out?
EndlesslyErased is offline   Reply With Quote
Old 11-08-2010, 09:46 AM   #4
DeadStar01
STFU>FO. . . please
 
DeadStar01's Avatar
 
Join Date: 01 June 2009
Location: Dublin, Ireland
Age: 25
e|-------------------------------------------------------------9----------|
B|---------------12-12-----9---------------------12-12-----11-----|
G|-11-11-11-----------------9-----11-11-11------------------11-|
D|---------------------------------9--------------------------------------|

e|-------------------------------------------------------------------------------------------|
B|---------------15-15--14--------------------------------------------12-12-12-12-|
G|-14-14-14----------------14---------------------12-12-12-11-------------------|
D|----------------------------------14--12-12-12--------------------------------------|

That's all I got so far. Not sure, but it sounds like it
I'd like it if someone could post a correction

I'll try find a better audio clip and do the intro.
__________________
You're now chatting with a random stranger. Say hi!
You: Apparently, I have to say hi
Stranger: Hi, Hello my name is Joe
You: Hey, I'm ari
You: Where you from?
Stranger: Portugal
Stranger: Cantanhede
You: Cool, Dublin, Ireland
You: Well, it appears the proper etiquette for omegle is to disconnect randomly, so
You have disconnected.

Take THAT /b/!

Last edited by DeadStar01; 07-10-2010 at 05:42 PM.
DeadStar01 is offline   Reply With Quote
Reply


Currently Active Users Viewing This Thread: 1 (0 members and 1 guests)
 
Thread Tools
Rate This Thread
Rate This Thread:

Posting Rules
You may not post new threads
You may not post replies
You may not post attachments
You may not edit your posts

BB code is On
Smilies are On
[IMG] code is On
HTML code is Off

Forum Jump


All times are GMT. The time now is 08:02 PM.


Powered by vBulletin® Version 3.8.9
Copyright ©2000 - 2018, vBulletin Solutions, Inc.
Follow the Muse Messageboard on Twitter!
'Pornogenic' - this refers to pics of Muse (and their crotch regions)