Go Back   Muse Messageboard > Muse Incl. Off Topic > Kit & Tab

Reply
 
Thread Tools Rate Thread
Old 29-06-2016, 05:02 AM   #646
heyjackk
Member
 
Join Date: 30 November 2013
Location: Sydney
Age: 21
SoundCloud icon
This is what I've been playing and it sounds pretty good to me. Listen for the timing but as you guys probably know it's pretty straight forward. Only thing I'm not sure about is that when he plays the Ab major in the second bar of the instrumental and "Feel me now" bits it might be Ab/C instead but eh.

Instrumental and "Feel me now"

G-5-------|-5-------|-8--------|-7-------|-5------|-5--7----|-8-----|-8--7--||
D-5-------|-6-------|-8--------|-8-------|-5------|-6--(8)--|-(8)---|-8--8--||
A-3-------|-6-------|-6--------|-5-------|-6------|-6--8----|-10----|-8--8--||
C---------|----------|-----------|----------|--------|----------|---------|--------|| X2

() = optional note if you want to thicken out the chord.

"Don't Leaveee me out in the cold"

e--------|---------------|-----------|------------|
B-8-----|---------------|-8--------|------------|
G-8-----|--8---10-----|-8--------|---8--7---|
D-5-----|-(6)--(6)-----|-8--------|---8--8---|
A--------|--6----6------|----------|----8--8---|
C--------|---------------|----------|------------|

"I gave you everything..."

e--------|---------------|-----------|----11--10---|
B-8-----|--8-----9-----|-11-------|---11--11----|
G-8-----|--8-----8-----|-8--------|---10--10---|
D-5-----|--6-----6-----|-8--------|---------------|

"My lips feel" - Matt arpeggiates this nowadays like this live (play each for a whole bar i just cba typing out a whole bar of it for each one)

e-11---------------|-13----------------|-11---------------|-10---------------||
B----13------13--|-----13------13---|----13-----13---|-----13------13--||
G--------12-------|---------12--------|---------12-------|----------12------||
D-------------------|--------------------|-------------------|--------------------|| x2

"You taught me to lie..." - Back to strumming.

e--11--------|-10-------|-11------|-10--------|
B--13-------|-12-------|-13------|-13--------|
G--13-------|-12-------|-12------|-12--------|

"On the outside..."

e--11--------|-10-------|-13------|-11--------|
B--13-------|-12-------|-13------|-13--------|
G--13-------|-12-------|-13------|-13--------|
heyjackk is offline   Reply With Quote
Old 05-07-2016, 06:48 PM   #647
wriinkly feet
Member
 
wriinkly feet's Avatar
 
Join Date: 15 June 2010
Location: Essex
Tumblr icon
I've been trying to work out this little lick matt does at 6:20 during the psycho riff for ages but cant figure it out. Anyone reckon they could figure it out?

https://www.youtube.com/watch?v=L-8fMNgg9dA
__________________
Wembley Stadium 11/9/10
Reading Festival 28/8/11
O2 Arena 27/10/12
Shepherds Bush Empire 18/2/13
Emirates Stadium 25/5/13

Download Festival 13/6/15 <- best gig ever
Werchter Festival 28/6/15

O2 Arena 12/4/16 absolute woat
wriinkly feet is offline   Reply With Quote
Old 05-07-2016, 08:41 PM   #648
Matthijs
KnT Factor Winner 2011
 
Matthijs's Avatar
 
Join Date: 01 June 2004
Location: Not TrumpLand
Age: 29
Send a message via Skype™ to Matthijs
Facebook icon Flickr icon Twitter icon SoundCloud icon
I can't be arsed tabbing it out, but if you can play the part at 0:15 SMBH, just shift it down 2 frets and play around there a bit...
__________________
Matthijs cannot be held responsible for any consequences of posts that have been made by Matthijs.
Matthijs is offline   Reply With Quote
Old 07-07-2016, 02:14 PM   #649
Cyndris
Lurker
 
Cyndris's Avatar
 
Join Date: 18 October 2008
Location: Netherlands
Age: 25
Facebook icon Last.fm icon Twitter icon You Tube icon SoundCloud icon
Quote:
Originally Posted by wriinkly feet View Post
I've been trying to work out this little lick matt does at 6:20 during the psycho riff for ages but cant figure it out. Anyone reckon they could figure it out?
Probably something like this:

Code:
e-----------------------------------------------------
B-----------------------------------------------------
G--12b14--12b14--12--10--12--10------10---------------
D--------------------------------12-------------------
A-----------------------------------------------------
D-----------------------------------------------------
Where the first 12b14 is the bend upwards, and the second 12b14 you bend it back, if that makes sense.
__________________
I have been successfully recorded as an active humint resource for Project Eurasia/Gran Ajedrez. I'm now standing by for orders. I'm being encouraged to continue recruitment efforts.

Pinkpop Festival 2007
Antwerp 02-11-2009
Ahoy 14-11-2009
Goffertpark 19-06-2010
Ziggo Dome 17-12-2012
Amsterdam ArenA 04-06-2013
Ziggo Dome 09-03-2015
Pinkpop Festival 2015
Lowlands Festival 2016
Cyndris is offline   Reply With Quote
Old 09-07-2016, 12:34 AM   #650
kramerkonopaski
Member
 
Join Date: 09 July 2016
Does anyone have the tab for the harmonics and extra bits played in Knights of Cydonia like at the O2 and Glastonbury recently?

https://www.youtube.com/watch?v=OAncW8fjFGo
Starts at about 6:25
kramerkonopaski is offline   Reply With Quote
Old 09-07-2016, 08:09 AM   #651
jonbrown
Member
 
Join Date: 23 August 2015
Location: Franklin, TN
Quote:
Originally Posted by kramerkonopaski View Post
Does anyone have the tab for the harmonics and extra bits played in Knights of Cydonia like at the O2 and Glastonbury recently?

https://www.youtube.com/watch?v=OAncW8fjFGo
Starts at about 6:25
Quote:
Originally Posted by muhaggart View Post
Only spent a couple of minutes trying to figure this one out but its sounding pretty close I think. I'm very tired so please forgive me if there are any errors but I think this does the trick? Some of it is a bit inaudible given the mixing and all that but... y'know

e|---------------------------5+-5+-7+----------7+---------------|
B|---------------------0-0---------------------------7+-----------|
G|----------------------------------------5+~----------7+~------|
D|------------------------------------------------------------------|
A|------------3+~-------------------------------------------------|
E|-3-0-0-0--------------------------------------------------------|

e|-----------------------------------------------------------------------------------------------|
B|-------------------------------------15------14-----14-----------14-----------------------|
G|-2(dive with trem bar)-/12--17b19------14-----14-----------14------------------|
D|----------------------------------------------------------------14----------14--------------|
A|---------------------------------------------------------------------------------16b17----|
E|----------------------------------------------------------------------------------------------|

e|-------------------------------------------------------------------------------------|
B|-----------------------------------------------------------7-------7-------7------|
G|-----------------------------------------------------------9b11--9b11--9b11-|
D|------------------------------------------------------------------------------------|
A|---16b17-16-14-16-14--14-14-14-14-14-14----------------------------|
E|------------------------------------------------------------------------------------|
On the other thread for muse live sounds
jonbrown is offline   Reply With Quote
Old 09-07-2016, 09:29 PM   #652
Lgxspy
Member
 
Lgxspy's Avatar
 
Join Date: 15 November 2015
Location: I live in a toxic jungle
Update for MoTP (except the bridge) : I found videos where we can see exactly what Matt's playing (ACL 2013 and videos from Hyena ).

For my pov, it looks like (again not so different from previous pages) :




E---
B---
G--5
D--5
A--3
C---


E---
B--4
G--5
D--5
A--6
C---

E--4
B--4
G--5
D--6
A---
C---

E---
B---
G--5
D--3
A---
C---

E---
B--4
G--5
D--X
A--3
C---


E---
B--4
G--5
D--x
A--6
C---

E--4
B--4
G--5
D--6
A---
C---

E---
B--6
G--5
D--3
A--3
C---
__________________
I'm french, show me mercy please
Attended gigs : 26/02/16 (Paris)
Fav' (atm) : OoS ; Fury/B&H/NB
Proud to like : Escape, Screenager, FAWY, Invincible, IBTY, Explorers, Revolt
I like these songs but don't understand the hype : Agitated, Citizen Erased, Dead Star, TSP
Enough of : Starlight, Madness, FG, UD....please stay DI, Mercy

Last edited by Lgxspy; 11-07-2016 at 01:42 PM.
Lgxspy is offline   Reply With Quote
Old 22-07-2016, 11:19 PM   #653
SuKiYaKi
Member
 
Join Date: 30 April 2016
Location: City of Delusion
Big Grin

Anyone got the tab for that little bit Matt does in Futurism? In this video, he does it around the 0:52 mark. Thanks in advance!

https://youtu.be/gVctNbuFu2E
SuKiYaKi is offline   Reply With Quote
Old 01-08-2016, 10:16 AM   #654
Matt
Member
 
Join Date: 25 March 2003
Location: Darlington, UK
Age: 33
Quote:
Originally Posted by SuKiYaKi View Post
Anyone got the tab for that little bit Matt does in Futurism? In this video, he does it around the 0:52 mark. Thanks in advance!

https://youtu.be/gVctNbuFu2E
I've been meaning to ask that as well. Can't seem to work it out and it's clearly not that complicated.
__________________
I want the peace and Joy in your mind
Matt is offline   Reply With Quote
Old 01-08-2016, 11:30 AM   #655
Jaicen
Member
 
Jaicen's Avatar
 
Join Date: 08 January 2005
Location: Sheffield
Age: 34
I'm sure this has been covered before, but does anyone have a tab for the guitar part in the HAARP recording of TIRO, the little descending riff that starts at 1:40?

Also the chorus chords he plays up around the 12th fret?
__________________
Hoping for sun, expecting the rain.
Jaicen is offline   Reply With Quote
Old 01-08-2016, 11:56 AM   #656
heyjackk
Member
 
Join Date: 30 November 2013
Location: Sydney
Age: 21
SoundCloud icon
Quote:
Originally Posted by Jaicen View Post
I'm sure this has been covered before, but does anyone have a tab for the guitar part in the HAARP recording of TIRO, the little descending riff that starts at 1:40?

Also the chorus chords he plays up around the 12th fret?
The "yeah you will.." bit? He just uses the same chords as the keyboard arpeggio bit in different inversions.

e-------|---------|---------|--8--8---10----|
B-10---|-10-----|-9-----|-10-10--12----|
G-9----|--8------|-7-----|-10-10--12----|
D-10--|--10-----|-9-----|------------------|

Chorus I THINK is something like

e----------------|----------------|--------------
B----------------|-----8---------|--6-----5---
G--9---10------|----10--------|--5-----5-----12-10-9
D-10---10------|----10--------|--7-----7---------------
A--8-----8------|----10--------|--7-----7-----10--8--7
E--8-----8------|----------------|--5-----5-----

Not so sure about the second chord because it seems weird for him to play a sus chord there for the whole bar but the others i'm confident are definitely correct from other videos of him playing it from that era.
heyjackk is offline   Reply With Quote
Old 01-08-2016, 12:04 PM   #657
Picko
Fight me IRL
 
Picko's Avatar
 
Join Date: 08 November 2008
Location: Fightin' around the world
Age: 24
Twitter icon
Quote:
Originally Posted by Jaicen View Post
I'm sure this has been covered before, but does anyone have a tab for the guitar part in the HAARP recording of TIRO, the little descending riff that starts at 1:40?

Also the chorus chords he plays up around the 12th fret?
First part of the TIRO chorus is something like this before going into the A minor chord:

e-----------------------------------------------------------------------------
B----------------------------------------------------------------------------
G-9---9---9---9--10-10-10-10----7---7---7---7---9--9--10--10-
D-10-10-10-10-10-10-10-10---10-10-10-10-10-10-10--10-
A-8---8---8---8---8---8---8---8---10-10-10-10-10-10-10--10-
E-8---8---8---8---8---8---8---8----------------------------------------

Don't forget he slides to a C5 chord with the root on the 8th fret just before the octaves too.
__________________
Keeper of:
Apocalypse Please visuals - Wembley 2007
Matt destroying his guitar during Stockholm Syndrome - Reading 2011


Quote:
Originally Posted by MUSESTL View Post
What's taking Rage so long? Maybe they're attacking Muse for playing UD?
Picko is offline   Reply With Quote
Old 01-08-2016, 12:12 PM   #658
heyjackk
Member
 
Join Date: 30 November 2013
Location: Sydney
Age: 21
SoundCloud icon
Quote:
Originally Posted by Picko View Post
First part of the TIRO chorus is something like this before going into the A minor chord:

e-----------------------------------------------------------------------------
B----------------------------------------------------------------------------
G-9---9---9---9--10-10-10-10----7---7---7---7---9--9--10--10-
D-10-10-10-10-10-10-10-10---10-10-10-10-10-10-10--10-
A-8---8---8---8---8---8---8---8---10-10-10-10-10-10-10--10-
E-8---8---8---8---8---8---8---8----------------------------------------

Don't forget he slides to a C5 chord with the root on the 8th fret just before the octaves too.
Pretty sure he doesn't actually play the D-E-F passage above the chord live though, especially not in that performance. It shows his hand at one point just stay still on the Fsus2 aka F/G chord (x|10|10|10|8|x). And yeah he does do the C5 too whoops but I feel like most people already knew that anyway
heyjackk is offline   Reply With Quote
Old 01-08-2016, 12:30 PM   #659
Picko
Fight me IRL
 
Picko's Avatar
 
Join Date: 08 November 2008
Location: Fightin' around the world
Age: 24
Twitter icon
Quote:
Originally Posted by heyjackk View Post
Pretty sure he doesn't actually play the D-E-F passage above the chord live though, especially not in that performance. It shows his hand at one point just stay still on the Fsus2 aka F/G chord (x|10|10|10|8|x). And yeah he does do the C5 too whoops but I feel like most people already knew that anyway
Maybe you're right, when I'm home from work the first thing I'll do is try it your way. I think the D-E-F is just to work with the vocals and give it a little bit more of a kick - I guess it's not vital.
__________________
Keeper of:
Apocalypse Please visuals - Wembley 2007
Matt destroying his guitar during Stockholm Syndrome - Reading 2011


Quote:
Originally Posted by MUSESTL View Post
What's taking Rage so long? Maybe they're attacking Muse for playing UD?
Picko is offline   Reply With Quote
Old 03-08-2016, 12:07 AM   #660
SuKiYaKi
Member
 
Join Date: 30 April 2016
Location: City of Delusion
I have received the answer to my previous question (not too many posts down) thanks to the Muse subreddit user LiamGaughan!


To those who are curious towards the tab, here it is!

e------------------
b--5----------6-----
g----6----------6-
d------7----------6
a---------------
e--------------
SuKiYaKi is offline   Reply With Quote
Reply

Tags
how to play , intro , lessons , live , maggies farm riff , muse , osaka jam , outro , piano , request , riffs , solo , songs , tab , tablature , tabs


Currently Active Users Viewing This Thread: 1 (0 members and 1 guests)
 
Thread Tools
Rate This Thread
Rate This Thread:

Posting Rules
You may not post new threads
You may not post replies
You may not post attachments
You may not edit your posts

BB code is On
Smilies are On
[IMG] code is On
HTML code is Off

Forum Jump


All times are GMT. The time now is 01:28 AM.


Powered by vBulletin® Version 3.8.9
Copyright ©2000 - 2017, vBulletin Solutions, Inc.
Follow the Muse Messageboard on Twitter!
'Pornogenic' - this refers to pics of Muse (and their crotch regions)