Go Back   Muse Messageboard > Muse Incl. Off Topic > Kit & Tab

Reply
 
Thread Tools Rate Thread
Old 18-06-2009, 12:46 AM   #121
~Tom
Member
 
~Tom's Avatar
 
Join Date: 06 October 2008
Location: Liverpool
Age: 27
Flickr icon
Anyone know the B&H guitar solo with the bending and delay, played during HAARP before the piano soloez.
~Tom is offline   Reply With Quote
Old 18-06-2009, 12:58 AM   #122
teej212
Member
 
teej212's Avatar
 
Join Date: 15 August 2008
-------------------------------|------------------------------|
-------------------------------|------------------------------|
--9----9----9----7--9-9b----7h-|--9----9----9----9--------7-9-|
-------------------------------|----------------------7-9-----|
-------------------------------|------------------------------|
-------------------------------|------------------------------|



------------------------------------|----------------------------------|
------------------------------------|----------------------------------|
--10----10----10----9--10-10b----9h-|--10----10----10----10--------7-9-|
------------------------------------|--------------------------7-9-----|
------------------------------------|----------------------------------|
------------------------------------|----------------------------------|



-------------------------------|-------------------------------|
--10-----10-----10-------------|--10-----10-----10-------------|
--12b----12b----12b------------|--12b----12b----12b------------|
-------------------------------|-------------------------------|
-------------------------------|-------------------------------|
-------------------------------|-------------------------------|


-------------------------------|-------------------------------------|
--12-----12-----12-------------|-------------------------------------|
--14b----14b----14b---L--------|-------------------------------------|
-------------------------------|-------------------------------------|
-------------------------------|--8-----8-----10----10----11----11---|
-------------------------------|--8---0-8---0-10----10----11----11---|



----------------------|
----------------------|
----------------------|
----------------------|
--12\-----------------|
--12\-----------------|

Last edited by teej212; 18-06-2009 at 01:02 AM.
teej212 is offline   Reply With Quote
Old 18-06-2009, 01:07 AM   #123
~Tom
Member
 
~Tom's Avatar
 
Join Date: 06 October 2008
Location: Liverpool
Age: 27
Flickr icon
winrar is you

fuck it, anyone have the full B&H HAARP tab, figuring it out is too frustrating ;___;

Last edited by ~Tom; 18-06-2009 at 01:15 AM.
~Tom is offline   Reply With Quote
Old 21-06-2009, 12:45 AM   #124
~Tom
Member
 
~Tom's Avatar
 
Join Date: 06 October 2008
Location: Liverpool
Age: 27
Flickr icon
shameless bump
~Tom is offline   Reply With Quote
Old 21-06-2009, 01:31 AM   #125
Neil.
▲▲△▲△△▼△▽▽▲
 
Neil.'s Avatar
 
Join Date: 17 January 2008
Location: Ireland; Dublij & Waterfodd
Age: 31
Muse.mu icon
i'd suggest maybe looking at www.ultimate-guitar.com . I've a vague recollection of coming across muse tabs from their live stuff...

it's more rewarding to work it out yourself though......
__________________
Quote:
Originally Posted by Super Sammy! View Post
GET DRUNK GET STONED GET FUCKED ALL IS WELL
Quote:
Originally Posted by Dave. View Post
I just accidentallied my pants.
Neil. is offline   Reply With Quote
Old 16-07-2009, 11:25 AM   #126
Gravijas
Member
 
Join Date: 06 March 2009
SS at Fuji Rock tabs ?

someone has tabs for this version of SS? =/ i searched a lot but didnt find anything =/

http://www.youtube.com/watch?v=GZ8638V7Ids
Gravijas is offline   Reply With Quote
Old 17-07-2009, 04:30 AM   #127
teej212
Member
 
teej212's Avatar
 
Join Date: 15 August 2008
really? most of it is the studio version and the middle part is very easy o figure out. give it a shot and if you cant get it ill see what i can come up with


after my wisdom teeth are removed tomorrow


btw, what happened to the whammy smiley?
teej212 is offline   Reply With Quote
Old 17-07-2009, 04:45 AM   #128
coffee_and_tv
will eat your chicken
 
coffee_and_tv's Avatar
 
Join Date: 28 January 2006
Location: melbourne! yeah!
Age: 28
Send a message via MSN to coffee_and_tv
Facebook icon MySpace icon
Quote:
Originally Posted by teej212 View Post
after my wisdom teeth are removed tomorrow
had that done a couple of weeks ago. its not as bad as everyone says, really. not eating solids for a few days was shit though. good luck!
__________________
myspace!
bandspace!
blog!

8/9/04 MUSE FESTIVAL HALL --- 30/1/07 MUSE FESTIVAL HALL
17/8/07 BOB DYLAN ROD LAVER ARENA --- 15/11/07 MUSE ROD LAVER ARENA
25/2/08 INTERPOL FESTIVAL HALL
5/1/09 FRANZ FERDINAND THE PALACE THEATRE
coffee_and_tv is offline   Reply With Quote
Old 17-07-2009, 02:21 PM   #129
teej212
Member
 
teej212's Avatar
 
Join Date: 15 August 2008
oh my god, i needed someone to say that to me SO badly. everyone is just saying how bad it is....and how am i gonna eat mah popkorn at Hary Potter?!?!?!>@!?@!><3/.,
teej212 is offline   Reply With Quote
Old 17-07-2009, 02:37 PM   #130
Neil.
▲▲△▲△△▼△▽▽▲
 
Neil.'s Avatar
 
Join Date: 17 January 2008
Location: Ireland; Dublij & Waterfodd
Age: 31
Muse.mu icon
ololol! chuck norris would kick seven shades of shit out of you for saying that...
__________________
Quote:
Originally Posted by Super Sammy! View Post
GET DRUNK GET STONED GET FUCKED ALL IS WELL
Quote:
Originally Posted by Dave. View Post
I just accidentallied my pants.
Neil. is offline   Reply With Quote
Old 17-07-2009, 08:34 PM   #131
teej212
Member
 
teej212's Avatar
 
Join Date: 15 August 2008
fuck chuck norris, bear grylls would kick his ass using his energy from his blueberry pancakes and his survival skills.
teej212 is offline   Reply With Quote
Old 18-07-2009, 04:31 AM   #132
coffee_and_tv
will eat your chicken
 
coffee_and_tv's Avatar
 
Join Date: 28 January 2006
Location: melbourne! yeah!
Age: 28
Send a message via MSN to coffee_and_tv
Facebook icon MySpace icon
Quote:
Originally Posted by teej212 View Post
oh my god, i needed someone to say that to me SO badly. everyone is just saying how bad it is....and how am i gonna eat mah popkorn at Hary Potter?!?!?!>@!?@!><3/.,
your friends must just be soft then! hope the surgery goes/is going/went well
__________________
myspace!
bandspace!
blog!

8/9/04 MUSE FESTIVAL HALL --- 30/1/07 MUSE FESTIVAL HALL
17/8/07 BOB DYLAN ROD LAVER ARENA --- 15/11/07 MUSE ROD LAVER ARENA
25/2/08 INTERPOL FESTIVAL HALL
5/1/09 FRANZ FERDINAND THE PALACE THEATRE
coffee_and_tv is offline   Reply With Quote
Old 18-07-2009, 02:01 PM   #133
teej212
Member
 
teej212's Avatar
 
Join Date: 15 August 2008
i cant swallow so i constantly have a mouthful of blood and my allergies were kicking up and i almost had to have to do the operation awake in fear of me suffocating

i said if that were the case i wouldnt do it. i ended up just taking a zyrtec d and waiting another hour
teej212 is offline   Reply With Quote
Old 18-07-2009, 04:46 PM   #134
MOTPRules
Member
 
MOTPRules's Avatar
 
Join Date: 21 February 2008
Location: Watford, Hertfordshire
Age: 24
Send a message via MSN to MOTPRules
MySpace icon You Tube icon
does anyone have the piano outro tab from muse at dundee 2006 in the song sunburn?
i know its originally piano, but he played it using his guitar, with his digitech whammy, im only interested in the tabs not the whammy for that part. thanks.

Also what settings does he use to get that trippy delay sound at the beginning of that song?

url enclosed;

http://www.youtube.com/watch?v=7X8T8oY38K0
__________________
Quote:
Originally Posted by stevie g View Post
I really wanted to hear a Jedward version of Micro Cuts.
Reporter: Matt, what would your song of the decade be?
Matt: Erm, God i don't know.. hmmm.. Paparazzi by Lady Gaga
Reporter: Really!?
Matt: Yeah I love it
MOTPRules is offline   Reply With Quote
Old 18-07-2009, 04:50 PM   #135
the_man361
Most Talented+Helpful 08!
 
the_man361's Avatar
 
Join Date: 20 August 2004
Location: Leeds
Age: 31
Send a message via MSN to the_man361
Facebook icon Twitter icon You Tube icon
Quote:
Originally Posted by MOTPRules View Post
does anyone have the piano outro tab from muse at dundee 2006 in the song sunburn?
i know its originally piano, but he played it using his guitar, with his digitech whammy, im only interested in the tabs not the whammy for that part. thanks.

Also what settings does he use to get that trippy delay sound at the beginning of that song?

url enclosed;

http://www.youtube.com/watch?v=7X8T8oY38K0
heres my sunburn piano tab:

G --0--3--5-----0--3--6-5----0--3--5--3--0-------
D --0--3--5-----0--3--6-5----0--3--5--3--0------- repeat 4x

then

A -----------------------1--1-------------------------4--4---4-4--
E ----1--1-1--x-x-x-x------------4--4-4--x-x-x-x--------------- repeat x2

after that, the other bit, which is:

E---------0---0--------------0-----------------0-1-0-------------------------
B--1-1-3---1---3---1-1-3-----1-0---1-1-3----------3-1-0-------0-1-1~--
G----------------------------------------------------------------0-2-----------
__________________


the_man361 is offline   Reply With Quote
Reply

Tags
how to play , intro , lessons , live , maggies farm riff , muse , osaka jam , outro , piano , request , riffs , solo , songs , tab , tablature , tabs


Currently Active Users Viewing This Thread: 1 (0 members and 1 guests)
 
Thread Tools
Rate This Thread
Rate This Thread:

Posting Rules
You may not post new threads
You may not post replies
You may not post attachments
You may not edit your posts

BB code is On
Smilies are On
[IMG] code is On
HTML code is Off

Forum Jump


All times are GMT. The time now is 07:11 AM.


Powered by vBulletin® Version 3.8.9
Copyright ©2000 - 2018, vBulletin Solutions, Inc.
Follow the Muse Messageboard on Twitter!
'Pornogenic' - this refers to pics of Muse (and their crotch regions)