View Single Post
Old 22-10-2010, 01:24 PM   #4
*TC*
Member
 
*TC*'s Avatar
 
Join Date: 17 July 2008
Location: Liverpool, UK
Age: 25
never written out a tab before so try my best, I feel like I'm missing something but I guess this will be okay as a start;
tis in Drop D

e|----------------------------------------------------------------------------------
b|-----------------------------------------------------------------------------------
g|----------------------0----------------------------------------0------------------
d|--------4---------------------4-----------------4---------------------4--------- x2
a|-------------5---------------------5-----------------5---------------------5----
d|----0------------0-------0------------------0------------0-------0--------------

e|----------------------------------------------------------------------------------
b|-----------------------------------------------------------------------------------
g|----------------------0----------------------------------------0------------------
d|---------2---------------------2-----------------2---------------------2--------- x2
a|-------------3---------------------3-----------------3---------------------3----
d|----3------------3-------3------------------3------------3-------3--------------
__________________
turn the drums up in the, umm, the ear goggles
*TC* is offline   Reply With Quote