View Single Post
Old 27-12-2011, 02:53 PM   #25
Dominic.
Member
 
Dominic.'s Avatar
 
Join Date: 31 January 2008
Age: 24
Quote:
Originally Posted by Olly. View Post
what tab do you use?
Had to go back 5 pages to find the right thread, but this is what I posted a while ago

Seriously the amount of searching it took me to find this...It's kind of a blend between studio and live version. Most of it is what he plays live, but like the last four bars and four bars in the middle where live he does some bends and shit I just put in what he plays on the album

Tuning is CADGBe obviously
Intro:
D--5--5--5--5--
A--3--3--3--3--
Intro after the intro which isn't quite the intro but I'll call it the intro anyway:
C--0--3--8--5--
Verse:
e---------------------------------
B------------(3)--4--4--4--6--
G--5--5--5--5--5--5--5--5---
D--5--5--6--3----------6--3---
A--3--6----------3--6-----------
C----------------------------------
Pre-chorus & Chorus:
A--3--6--11-8--
C--0--3--8---5--
Random 4 bars in the middle (obviously he plays this different live)
D--5--5--5--5--
A--3--3--3--3--
C--0--0--0--0--
Then this again:
A--3--6--11-8--
C--0--3--8---5--
Second Verse:
e---------------------------------
B------------(3)--4--4--4--6--
G--5--5--5--5--5--5--5--5---
D--5--5--6--3----------6--3---
A--3--6----------3--6-----------
C----------------------------------
Le slow chorus:
e--8----11--11---8---
B--8----8----9----9---
G--8----8----8---10--
D--10---8---10--10--
Outro (again, he'd play something else live, but this is more similar to the studio version):
A--3--3--3--3--
C--0--0--0--0--

Judge for yourselves


Quote:
Originally Posted by Tom! View Post
Anyone got Aorfix's midi file and are willing to upload it somewhere where we can grab it?
I might have it in my YouTube inbox actually...
Re:MOTP file
Cubase 5 Portable -> http://www.megaupload.com/?d=F8EEXL0Y It was on btjunkie torrent site but it's gone now. It's portable, so no installation needed. The file say Photos from Wedding, only for precaution and not to be blocked. It's on .rar, so you need winrar or 7zip to extract it. Extract it, run Cubase5.exe and the program will run perfectly.

Map of the Problematique Cubase File Here is the Cubase file with everything (midi track and the original by muse) -> (Map of the Problematique version 1) http://www.megaupload.com/?d=T9PH5ZS7
-> the file is the "motp work on 2"

Recently I've updated the midi track to a new version
(Map of the Problematique Version 2) http://www.megaupload.com/?d=2M5JZBU9
-> The file is "motp work on 3-01

You only need to open the file and press play. Don't forget to connect your midi cable (like the M-Audio Uno Usb/Midi) to the digitech whammy 4 by the Midi In and to press your Whammy pedal down


If anyone thinks I should remove that then just tell me. I'm only pasting it here since he seems willing to let people have it anyway, just no one can seem to get hold of him at the moment. To be honest I don't even know if the links still work
__________________
enit
Quote:
Originally Posted by james90 View Post
Eb--0--3--0--5--0--2--0--0--3--0

(short pause)

Eb--6--6
Dominic. is offline   Reply With Quote