View Single Post
Old 15-01-2006, 09:23 PM   #74
dwydav
Sexiest Muser 2010
 
dwydav's Avatar
 
Join Date: 05 September 2005
Quote:
Originally Posted by Oeneus
Oh yeah, I know the solo bit, that's the easy part. I'm talking about the part for the verse on the studio version.

What I mean by the doubling up, is having the delay set up so it does one repeat nicely and sharply so it sounds like you played the note twice. eg. when you play
|---------------|
|-6-------------|
|----7-----7----|
|-------7-------|
|---------------|
|---------------|

it sounds like

|----------------|
|-6-6------------|
|----7-7----7-7--|
|-------7-7------|
|----------------|
|----------------|
watch the video of Fury in Montreux you get a nice close up of the chorus when he does that and he actually double picks (but I reckon he is using a backing track.. )
dwydav is offline   Reply With Quote