Muse Messageboard

Muse Messageboard (http://board.muse.mu/index.php)
-   Kit & Tab (http://board.muse.mu/forumdisplay.php?f=5)
-   -   Tab Request Thread (http://board.muse.mu/showthread.php?t=50291)

Assassin231 13-12-2007 04:54 PM

Tab Request Thread
 
Saw it on muse live, think it should be on this forum, to avoid a few pointless threads.

coffee_and_tv 13-12-2007 10:10 PM

anyone tabbed the intro of the studio version of deadstar? the bit where its like theres a couple of chords then the 2.5 fret d string harmonic?

cheers

~NoblameNoshame~ 13-12-2007 10:23 PM

Quote:

Originally Posted by coffee_and_tv (Post 3752292)
anyone tabbed the intro of the studio version of deadstar? the bit where its like theres a couple of chords then the 2.5 fret d string harmonic?

cheers

The chord is...

E--------------------------
B---10-------10---------
G---13-------13---------
D---12-0-0--12-0-0---
A--------------------------
D--------------------------

& so on...

coffee_and_tv 13-12-2007 10:28 PM

thanks! been trying to work that'un out for quite a while..

Assassin231 13-12-2007 10:44 PM

Quote:

Originally Posted by coffee_and_tv (Post 3752393)
thanks! been trying to work that'un out for quite a while..

same, anyone got the chords for the live intro to KOC, before the tremelo picking intro?

~NoblameNoshame~ 13-12-2007 10:55 PM

Quote:

Originally Posted by Assassin231 (Post 3752486)
same, anyone got the chords for the live intro to KOC, before the tremelo picking intro?

He plays around with it loads...

Jools Holland version...
E---0---0---0---0---
B---3---0---1---0---
G---0---0---0---0---
D---2---2---2---2---
A---2---2---2---2---
E---0---0---0---0---

Random other version...
E---0---0---0---0---0---
B---0---3---2---1---0---
G---0---0---0---0---0---
D---2---2---2---2---2---
A---2---2---2---2---2---
E---0---0---0---0---0---

This makes me look like a right Muse geek :rolleyes:

Drumlicious 14-12-2007 12:01 AM

The after sunburn/before butterflies and hurricanes riff at glastonbury?

Assassin231 14-12-2007 07:12 AM

Quote:

Originally Posted by ~NoblameNoshame~ (Post 3752527)
He plays around with it loads...

Jools Holland version...
E---0---0---0---0---
B---3---0---1---0---
G---0---0---0---0---
D---2---2---2---2---
A---2---2---2---2---
E---0---0---0---0---

Random other version...
E---0---0---0---0---0---
B---0---3---2---1---0---
G---0---0---0---0---0---
D---2---2---2---2---2---
A---2---2---2---2---2---
E---0---0---0---0---0---

This makes me look like a right Muse geek :rolleyes:

haha thanks

~NoblameNoshame~ 14-12-2007 05:41 PM

Quote:

Originally Posted by Drumlicious (Post 3752903)
The after sunburn/before butterflies and hurricanes riff at glastonbury?

e--------------------------------------------------------------------
b--------------------------------------------------------------------
g------------10-----10-12-10--------------9-----9-12-9-----
d---12-12------12-------------12-11-11---11-----------11-Repeat! Quick March!
a--------------------------------------------------------------------
e--------------------------------------------------------------------

ryanbmuff 14-12-2007 06:19 PM

how 2 ply plug in baby plz kthxbai lolz

~NoblameNoshame~ 14-12-2007 07:06 PM

Quote:

Originally Posted by ryanbmuff (Post 3754976)
how 2 ply plug in baby plz kthxbai lolz

e---------------------------------------------------------------------------------------
f-----------------------------------------------------------------------------------8----
t-0-5-8-6-3-5-------1---3-----------------------------------------------------7----
b----------------4---2------------------------------------------------------------6-----
a-------------------5----5----5--666(sig of the devil)-Channel 9!----7-----
d-----------------------------------------------------------------------------------0---

NightMan 22-02-2008 07:48 PM

http://www.youtube.com/watch?v=XrVLX...eature=related

From 1:50 to 2:15??

JJ 22-02-2008 11:10 PM

twinkle twinkle little star plox

~NoblameNoshame~ 23-02-2008 01:12 AM

Quote:

Originally Posted by NightMan (Post 4032202)

Its the bass line that chris plays...

e--------------------I
b--------------------I
g---11---------11-I
d------------11-----I
a-9----9--9--------I
e---------------------I

Thats the F# pattern, then move the shape up all a semi tone to G, Then to D with 10th fret E string being the best place....

NightMan 23-02-2008 03:50 AM

The maggie's farm riff matt plays? (tab)


All times are GMT. The time now is 03:40 PM.

Powered by vBulletin® Version 3.8.9
Copyright ©2000 - 2017, vBulletin Solutions, Inc.
Follow the Muse Messageboard on Twitter!
'Pornogenic' - this refers to pics of Muse (and their crotch regions)