Muse Messageboard

Muse Messageboard (http://board.muse.mu/index.php)
-   Kit & Tab (http://board.muse.mu/forumdisplay.php?f=5)
-   -   Can somebody do a super-quick tab of this? (Two chords) (http://board.muse.mu/showthread.php?t=79066)

Anxyous 21-10-2010 07:28 PM

Can somebody do a super-quick tab of this? (Two chords)
 
Hey!

I was wondering, if anybody would be kind enough to do a quick tab of the intro of a song?

The song is called 'Blanc', and can be found in the player of this site: www.myspace.com/courslapin

As far as I can tell, it's just two arpeggiated chords, so if you could find out, what the chords are, and really quickly work at a strumming pattern, I'll send you a big hug :happy:

Thanks!

Anxyous 22-10-2010 12:13 PM

No one? But... the hugs :supersad:

james90 22-10-2010 12:23 PM

Haha, I guess I'll give it a try...I'll post if I find anything out

I'm guessing it's finger picking, though I'm not 100% about that.

*TC* 22-10-2010 02:24 PM

never written out a tab before so try my best, I feel like I'm missing something but I guess this will be okay as a start;
tis in Drop D

e|----------------------------------------------------------------------------------
b|-----------------------------------------------------------------------------------
g|----------------------0----------------------------------------0------------------
d|--------4---------------------4-----------------4---------------------4--------- x2
a|-------------5---------------------5-----------------5---------------------5----
d|----0------------0-------0------------------0------------0-------0--------------

e|----------------------------------------------------------------------------------
b|-----------------------------------------------------------------------------------
g|----------------------0----------------------------------------0------------------
d|---------2---------------------2-----------------2---------------------2--------- x2
a|-------------3---------------------3-----------------3---------------------3----
d|----3------------3-------3------------------3------------3-------3--------------

Anxyous 23-10-2010 11:28 AM

Quote:

Originally Posted by *TC* (Post 8604740)
never written out a tab before so try my best, I feel like I'm missing something but I guess this will be okay as a start;
tis in Drop D

e|----------------------------------------------------------------------------------
b|-----------------------------------------------------------------------------------
g|----------------------0----------------------------------------0------------------
d|--------4---------------------4-----------------4---------------------4--------- x2
a|-------------5---------------------5-----------------5---------------------5----
d|----0------------0-------0------------------0------------0-------0--------------

e|----------------------------------------------------------------------------------
b|-----------------------------------------------------------------------------------
g|----------------------0----------------------------------------0------------------
d|---------2---------------------2-----------------2---------------------2--------- x2
a|-------------3---------------------3-----------------3---------------------3----
d|----3------------3-------3------------------3------------3-------3--------------

Thank you very much, I'll send you a hug sometime later :happy:

You get one too, James! :D


All times are GMT. The time now is 04:27 AM.

Powered by vBulletin® Version 3.8.9
Copyright ©2000 - 2018, vBulletin Solutions, Inc.
Follow the Muse Messageboard on Twitter!
'Pornogenic' - this refers to pics of Muse (and their crotch regions)